ISO-10303-21;
HEADER;
/* Generated by software containing ST-Developer
 * from STEP Tools, Inc. (www.steptools.com) 
 */
/* OPTION: using custom schema-name function */

FILE_DESCRIPTION(
/* description */ (''),
/* implementation_level */ '2;1');

FILE_NAME(
/* name */ '100740366ugm000_a.stp',
/* time_stamp */ '2017-09-26T12:27:21+02:00',
/* author */ (''),
/* organization */ (''),
/* preprocessor_version */ 'ST-DEVELOPER v16',
/* originating_system */ 'SIEMENS PLM Software NX 10.0',
/* authorisation */ '');

FILE_SCHEMA (('AUTOMOTIVE_DESIGN { 1 0 10303 214 3 1 1 1 }'));
ENDSEC;

DATA;
#10=GEOMETRICALLY_BOUNDED_WIREFRAME_SHAPE_REPRESENTATION(
'100740366ugm000_a-None',(#33),#515);
#11=PROPERTY_DEFINITION_REPRESENTATION(#15,#13);
#12=PROPERTY_DEFINITION_REPRESENTATION(#16,#14);
#13=REPRESENTATION('',(#17),#515);
#14=REPRESENTATION('',(#18),#515);
#15=PROPERTY_DEFINITION('pmi validation property','',#23);
#16=PROPERTY_DEFINITION('pmi validation property','',#23);
#17=VALUE_REPRESENTATION_ITEM('number of annotations',COUNT_MEASURE(0.));
#18=VALUE_REPRESENTATION_ITEM('number of views',COUNT_MEASURE(0.));
#19=SHAPE_REPRESENTATION_RELATIONSHIP('None',
'relationship between 100740366ugm000_a-None and 100740366ugm000_a-Non
e',#32,#21);
#20=SHAPE_REPRESENTATION_RELATIONSHIP('None',
'relationship between 100740366ugm000_a-None and 100740366ugm000_a-Non
e',#32,#10);
#21=ADVANCED_BREP_SHAPE_REPRESENTATION('100740366ugm000_a-None',(#39),#515);
#22=SHAPE_DEFINITION_REPRESENTATION(#23,#32);
#23=PRODUCT_DEFINITION_SHAPE('','',#24);
#24=PRODUCT_DEFINITION(' ','',#26,#25);
#25=PRODUCT_DEFINITION_CONTEXT('part definition',#31,'design');
#26=PRODUCT_DEFINITION_FORMATION_WITH_SPECIFIED_SOURCE(' ',' ',#28,
 .NOT_KNOWN.);
#27=PRODUCT_RELATED_PRODUCT_CATEGORY('part','',(#28));
#28=PRODUCT('100740366ugm000_a','100740366ugm000_a',' ',(#29));
#29=PRODUCT_CONTEXT(' ',#31,'mechanical');
#30=APPLICATION_PROTOCOL_DEFINITION('international standard',
'automotive_design',2010,#31);
#31=APPLICATION_CONTEXT(
'core data for automotive mechanical design processes');
#32=SHAPE_REPRESENTATION('100740366ugm000_a-None',(#319),#515);
#33=GEOMETRIC_CURVE_SET('None',(#434));
#34=SURFACE_STYLE_USAGE(.BOTH.,#35);
#35=SURFACE_SIDE_STYLE('',(#36));
#36=SURFACE_STYLE_FILL_AREA(#37);
#37=FILL_AREA_STYLE('',(#38));
#38=FILL_AREA_STYLE_COLOUR('',#318);
#39=MANIFOLD_SOLID_BREP('',#40);
#40=CLOSED_SHELL('',(#60,#61,#62,#63,#64,#65,#66,#67,#68,#69,#70,#71,#72,
#73,#74));
#41=CYLINDRICAL_SURFACE('',#329,9.95000000000108);
#42=CYLINDRICAL_SURFACE('',#332,9.95000000000166);
#43=CYLINDRICAL_SURFACE('',#335,9.9500000000003);
#44=CYLINDRICAL_SURFACE('',#338,9.94999999999891);
#45=CYLINDRICAL_SURFACE('',#341,9.95000000000056);
#46=CYLINDRICAL_SURFACE('',#344,9.95000000000128);
#47=CYLINDRICAL_SURFACE('',#348,6.93000000000001);
#48=FACE_OUTER_BOUND('',#139,.T.);
#49=FACE_OUTER_BOUND('',#140,.T.);
#50=FACE_OUTER_BOUND('',#141,.T.);
#51=FACE_OUTER_BOUND('',#142,.T.);
#52=FACE_OUTER_BOUND('',#143,.T.);
#53=FACE_OUTER_BOUND('',#144,.T.);
#54=FACE_OUTER_BOUND('',#145,.T.);
#55=FACE_OUTER_BOUND('',#146,.T.);
#56=FACE_OUTER_BOUND('',#147,.T.);
#57=FACE_OUTER_BOUND('',#148,.T.);
#58=FACE_OUTER_BOUND('',#149,.T.);
#59=FACE_OUTER_BOUND('',#150,.T.);
#60=ADVANCED_FACE('',(#131,#132),#75,.T.);
#61=ADVANCED_FACE('',(#48),#41,.T.);
#62=ADVANCED_FACE('',(#49),#76,.T.);
#63=ADVANCED_FACE('',(#50),#42,.T.);
#64=ADVANCED_FACE('',(#51),#77,.T.);
#65=ADVANCED_FACE('',(#52),#43,.T.);
#66=ADVANCED_FACE('',(#53),#78,.T.);
#67=ADVANCED_FACE('',(#54),#44,.T.);
#68=ADVANCED_FACE('',(#55),#79,.T.);
#69=ADVANCED_FACE('',(#56),#45,.T.);
#70=ADVANCED_FACE('',(#57),#80,.T.);
#71=ADVANCED_FACE('',(#58),#46,.T.);
#72=ADVANCED_FACE('',(#59),#81,.T.);
#73=ADVANCED_FACE('',(#133,#134),#82,.T.);
#74=ADVANCED_FACE('',(#135,#136),#47,.F.);
#75=PLANE('',#327);
#76=PLANE('',#330);
#77=PLANE('',#333);
#78=PLANE('',#336);
#79=PLANE('',#339);
#80=PLANE('',#342);
#81=PLANE('',#345);
#82=PLANE('',#347);
#83=LINE('',#440,#107);
#84=LINE('',#444,#108);
#85=LINE('',#448,#109);
#86=LINE('',#452,#110);
#87=LINE('',#456,#111);
#88=LINE('',#460,#112);
#89=LINE('',#465,#113);
#90=LINE('',#466,#114);
#91=LINE('',#468,#115);
#92=LINE('',#470,#116);
#93=LINE('',#474,#117);
#94=LINE('',#476,#118);
#95=LINE('',#478,#119);
#96=LINE('',#482,#120);
#97=LINE('',#484,#121);
#98=LINE('',#486,#122);
#99=LINE('',#490,#123);
#100=LINE('',#492,#124);
#101=LINE('',#494,#125);
#102=LINE('',#498,#126);
#103=LINE('',#500,#127);
#104=LINE('',#502,#128);
#105=LINE('',#506,#129);
#106=LINE('',#508,#130);
#107=VECTOR('',#355,1.);
#108=VECTOR('',#358,1.);
#109=VECTOR('',#361,1.);
#110=VECTOR('',#364,1.);
#111=VECTOR('',#367,1.);
#112=VECTOR('',#370,1.);
#113=VECTOR('',#375,1.);
#114=VECTOR('',#376,1.);
#115=VECTOR('',#379,1.);
#116=VECTOR('',#380,1.);
#117=VECTOR('',#385,1.);
#118=VECTOR('',#388,1.);
#119=VECTOR('',#389,1.);
#120=VECTOR('',#394,1.);
#121=VECTOR('',#397,1.);
#122=VECTOR('',#398,1.);
#123=VECTOR('',#403,1.);
#124=VECTOR('',#406,1.);
#125=VECTOR('',#407,1.);
#126=VECTOR('',#412,1.);
#127=VECTOR('',#415,1.);
#128=VECTOR('',#416,1.);
#129=VECTOR('',#421,1.);
#130=VECTOR('',#424,1.);
#131=FACE_BOUND('',#137,.T.);
#132=FACE_BOUND('',#138,.T.);
#133=FACE_BOUND('',#151,.T.);
#134=FACE_BOUND('',#152,.T.);
#135=FACE_BOUND('',#153,.T.);
#136=FACE_BOUND('',#154,.T.);
#137=EDGE_LOOP('',(#155));
#138=EDGE_LOOP('',(#156,#157,#158,#159,#160,#161,#162,#163,#164,#165,#166,
#167));
#139=EDGE_LOOP('',(#168,#169,#170,#171));
#140=EDGE_LOOP('',(#172,#173,#174,#175));
#141=EDGE_LOOP('',(#176,#177,#178,#179));
#142=EDGE_LOOP('',(#180,#181,#182,#183));
#143=EDGE_LOOP('',(#184,#185,#186,#187));
#144=EDGE_LOOP('',(#188,#189,#190,#191));
#145=EDGE_LOOP('',(#192,#193,#194,#195));
#146=EDGE_LOOP('',(#196,#197,#198,#199));
#147=EDGE_LOOP('',(#200,#201,#202,#203));
#148=EDGE_LOOP('',(#204,#205,#206,#207));
#149=EDGE_LOOP('',(#208,#209,#210,#211));
#150=EDGE_LOOP('',(#212,#213,#214,#215));
#151=EDGE_LOOP('',(#216));
#152=EDGE_LOOP('',(#217,#218,#219,#220,#221,#222,#223,#224,#225,#226,#227,
#228));
#153=EDGE_LOOP('',(#229));
#154=EDGE_LOOP('',(#230));
#155=ORIENTED_EDGE('',*,*,#257,.F.);
#156=ORIENTED_EDGE('',*,*,#258,.T.);
#157=ORIENTED_EDGE('',*,*,#259,.T.);
#158=ORIENTED_EDGE('',*,*,#260,.T.);
#159=ORIENTED_EDGE('',*,*,#261,.T.);
#160=ORIENTED_EDGE('',*,*,#262,.T.);
#161=ORIENTED_EDGE('',*,*,#263,.T.);
#162=ORIENTED_EDGE('',*,*,#264,.T.);
#163=ORIENTED_EDGE('',*,*,#265,.T.);
#164=ORIENTED_EDGE('',*,*,#266,.T.);
#165=ORIENTED_EDGE('',*,*,#267,.T.);
#166=ORIENTED_EDGE('',*,*,#268,.T.);
#167=ORIENTED_EDGE('',*,*,#269,.F.);
#168=ORIENTED_EDGE('',*,*,#270,.F.);
#169=ORIENTED_EDGE('',*,*,#271,.F.);
#170=ORIENTED_EDGE('',*,*,#268,.F.);
#171=ORIENTED_EDGE('',*,*,#272,.T.);
#172=ORIENTED_EDGE('',*,*,#273,.F.);
#173=ORIENTED_EDGE('',*,*,#272,.F.);
#174=ORIENTED_EDGE('',*,*,#267,.F.);
#175=ORIENTED_EDGE('',*,*,#274,.T.);
#176=ORIENTED_EDGE('',*,*,#275,.F.);
#177=ORIENTED_EDGE('',*,*,#274,.F.);
#178=ORIENTED_EDGE('',*,*,#266,.F.);
#179=ORIENTED_EDGE('',*,*,#276,.T.);
#180=ORIENTED_EDGE('',*,*,#277,.F.);
#181=ORIENTED_EDGE('',*,*,#276,.F.);
#182=ORIENTED_EDGE('',*,*,#265,.F.);
#183=ORIENTED_EDGE('',*,*,#278,.T.);
#184=ORIENTED_EDGE('',*,*,#279,.F.);
#185=ORIENTED_EDGE('',*,*,#278,.F.);
#186=ORIENTED_EDGE('',*,*,#264,.F.);
#187=ORIENTED_EDGE('',*,*,#280,.T.);
#188=ORIENTED_EDGE('',*,*,#281,.F.);
#189=ORIENTED_EDGE('',*,*,#280,.F.);
#190=ORIENTED_EDGE('',*,*,#263,.F.);
#191=ORIENTED_EDGE('',*,*,#282,.T.);
#192=ORIENTED_EDGE('',*,*,#283,.F.);
#193=ORIENTED_EDGE('',*,*,#282,.F.);
#194=ORIENTED_EDGE('',*,*,#262,.F.);
#195=ORIENTED_EDGE('',*,*,#284,.T.);
#196=ORIENTED_EDGE('',*,*,#285,.F.);
#197=ORIENTED_EDGE('',*,*,#284,.F.);
#198=ORIENTED_EDGE('',*,*,#261,.F.);
#199=ORIENTED_EDGE('',*,*,#286,.T.);
#200=ORIENTED_EDGE('',*,*,#287,.F.);
#201=ORIENTED_EDGE('',*,*,#286,.F.);
#202=ORIENTED_EDGE('',*,*,#260,.F.);
#203=ORIENTED_EDGE('',*,*,#288,.T.);
#204=ORIENTED_EDGE('',*,*,#289,.F.);
#205=ORIENTED_EDGE('',*,*,#288,.F.);
#206=ORIENTED_EDGE('',*,*,#259,.F.);
#207=ORIENTED_EDGE('',*,*,#290,.T.);
#208=ORIENTED_EDGE('',*,*,#291,.F.);
#209=ORIENTED_EDGE('',*,*,#290,.F.);
#210=ORIENTED_EDGE('',*,*,#258,.F.);
#211=ORIENTED_EDGE('',*,*,#292,.F.);
#212=ORIENTED_EDGE('',*,*,#293,.T.);
#213=ORIENTED_EDGE('',*,*,#292,.T.);
#214=ORIENTED_EDGE('',*,*,#269,.T.);
#215=ORIENTED_EDGE('',*,*,#271,.T.);
#216=ORIENTED_EDGE('',*,*,#294,.F.);
#217=ORIENTED_EDGE('',*,*,#293,.F.);
#218=ORIENTED_EDGE('',*,*,#270,.T.);
#219=ORIENTED_EDGE('',*,*,#273,.T.);
#220=ORIENTED_EDGE('',*,*,#275,.T.);
#221=ORIENTED_EDGE('',*,*,#277,.T.);
#222=ORIENTED_EDGE('',*,*,#279,.T.);
#223=ORIENTED_EDGE('',*,*,#281,.T.);
#224=ORIENTED_EDGE('',*,*,#283,.T.);
#225=ORIENTED_EDGE('',*,*,#285,.T.);
#226=ORIENTED_EDGE('',*,*,#287,.T.);
#227=ORIENTED_EDGE('',*,*,#289,.T.);
#228=ORIENTED_EDGE('',*,*,#291,.T.);
#229=ORIENTED_EDGE('',*,*,#257,.T.);
#230=ORIENTED_EDGE('',*,*,#294,.T.);
#231=VERTEX_POINT('',#436);
#232=VERTEX_POINT('',#438);
#233=VERTEX_POINT('',#439);
#234=VERTEX_POINT('',#441);
#235=VERTEX_POINT('',#443);
#236=VERTEX_POINT('',#445);
#237=VERTEX_POINT('',#447);
#238=VERTEX_POINT('',#449);
#239=VERTEX_POINT('',#451);
#240=VERTEX_POINT('',#453);
#241=VERTEX_POINT('',#455);
#242=VERTEX_POINT('',#457);
#243=VERTEX_POINT('',#459);
#244=VERTEX_POINT('',#463);
#245=VERTEX_POINT('',#464);
#246=VERTEX_POINT('',#469);
#247=VERTEX_POINT('',#473);
#248=VERTEX_POINT('',#477);
#249=VERTEX_POINT('',#481);
#250=VERTEX_POINT('',#485);
#251=VERTEX_POINT('',#489);
#252=VERTEX_POINT('',#493);
#253=VERTEX_POINT('',#497);
#254=VERTEX_POINT('',#501);
#255=VERTEX_POINT('',#505);
#256=VERTEX_POINT('',#511);
#257=EDGE_CURVE('',#231,#231,#295,.T.);
#258=EDGE_CURVE('',#232,#233,#296,.T.);
#259=EDGE_CURVE('',#233,#234,#83,.T.);
#260=EDGE_CURVE('',#234,#235,#297,.T.);
#261=EDGE_CURVE('',#235,#236,#84,.T.);
#262=EDGE_CURVE('',#236,#237,#298,.T.);
#263=EDGE_CURVE('',#237,#238,#85,.T.);
#264=EDGE_CURVE('',#238,#239,#299,.T.);
#265=EDGE_CURVE('',#239,#240,#86,.T.);
#266=EDGE_CURVE('',#240,#241,#300,.T.);
#267=EDGE_CURVE('',#241,#242,#87,.T.);
#268=EDGE_CURVE('',#242,#243,#301,.T.);
#269=EDGE_CURVE('',#232,#243,#88,.T.);
#270=EDGE_CURVE('',#244,#245,#302,.T.);
#271=EDGE_CURVE('',#243,#244,#89,.T.);
#272=EDGE_CURVE('',#242,#245,#90,.T.);
#273=EDGE_CURVE('',#245,#246,#91,.T.);
#274=EDGE_CURVE('',#241,#246,#92,.T.);
#275=EDGE_CURVE('',#246,#247,#303,.T.);
#276=EDGE_CURVE('',#240,#247,#93,.T.);
#277=EDGE_CURVE('',#247,#248,#94,.T.);
#278=EDGE_CURVE('',#239,#248,#95,.T.);
#279=EDGE_CURVE('',#248,#249,#304,.T.);
#280=EDGE_CURVE('',#238,#249,#96,.T.);
#281=EDGE_CURVE('',#249,#250,#97,.T.);
#282=EDGE_CURVE('',#237,#250,#98,.T.);
#283=EDGE_CURVE('',#250,#251,#305,.T.);
#284=EDGE_CURVE('',#236,#251,#99,.T.);
#285=EDGE_CURVE('',#251,#252,#100,.T.);
#286=EDGE_CURVE('',#235,#252,#101,.T.);
#287=EDGE_CURVE('',#252,#253,#306,.T.);
#288=EDGE_CURVE('',#234,#253,#102,.T.);
#289=EDGE_CURVE('',#253,#254,#103,.T.);
#290=EDGE_CURVE('',#233,#254,#104,.T.);
#291=EDGE_CURVE('',#254,#255,#307,.T.);
#292=EDGE_CURVE('',#255,#232,#105,.T.);
#293=EDGE_CURVE('',#244,#255,#106,.T.);
#294=EDGE_CURVE('',#256,#256,#308,.T.);
#295=CIRCLE('',#320,6.93);
#296=CIRCLE('',#321,9.95000000000128);
#297=CIRCLE('',#322,9.95000000000056);
#298=CIRCLE('',#323,9.94999999999892);
#299=CIRCLE('',#324,9.95000000000029);
#300=CIRCLE('',#325,9.95000000000166);
#301=CIRCLE('',#326,9.95000000000108);
#302=CIRCLE('',#328,9.95000000000107);
#303=CIRCLE('',#331,9.95000000000162);
#304=CIRCLE('',#334,9.95000000000025);
#305=CIRCLE('',#337,9.94999999999892);
#306=CIRCLE('',#340,9.95000000000053);
#307=CIRCLE('',#343,9.95000000000126);
#308=CIRCLE('',#346,6.93000000000001);
#309=PRESENTATION_LAYER_ASSIGNMENT('130','Layer 130',(#434));
#310=PRESENTATION_LAYER_ASSIGNMENT('1','Layer 1',(#39));
#311=STYLED_ITEM('',(#313),#434);
#312=STYLED_ITEM('',(#314),#39);
#313=PRESENTATION_STYLE_ASSIGNMENT((#315));
#314=PRESENTATION_STYLE_ASSIGNMENT((#34));
#315=POINT_STYLE('',#316,POSITIVE_LENGTH_MEASURE(3.),#317);
#316=PRE_DEFINED_POINT_MARKER_SYMBOL('plus');
#317=COLOUR_RGB('Medium Maroon',0.6,0.4,0.4);
#318=COLOUR_RGB('GOLDEN_ORANGE',1.,0.65999847409781,0.);
#319=AXIS2_PLACEMENT_3D('',#433,#349,#350);
#320=AXIS2_PLACEMENT_3D('',#435,#351,#352);
#321=AXIS2_PLACEMENT_3D('',#437,#353,#354);
#322=AXIS2_PLACEMENT_3D('',#442,#356,#357);
#323=AXIS2_PLACEMENT_3D('',#446,#359,#360);
#324=AXIS2_PLACEMENT_3D('',#450,#362,#363);
#325=AXIS2_PLACEMENT_3D('',#454,#365,#366);
#326=AXIS2_PLACEMENT_3D('',#458,#368,#369);
#327=AXIS2_PLACEMENT_3D('',#461,#371,#372);
#328=AXIS2_PLACEMENT_3D('',#462,#373,#374);
#329=AXIS2_PLACEMENT_3D('',#467,#377,#378);
#330=AXIS2_PLACEMENT_3D('',#471,#381,#382);
#331=AXIS2_PLACEMENT_3D('',#472,#383,#384);
#332=AXIS2_PLACEMENT_3D('',#475,#386,#387);
#333=AXIS2_PLACEMENT_3D('',#479,#390,#391);
#334=AXIS2_PLACEMENT_3D('',#480,#392,#393);
#335=AXIS2_PLACEMENT_3D('',#483,#395,#396);
#336=AXIS2_PLACEMENT_3D('',#487,#399,#400);
#337=AXIS2_PLACEMENT_3D('',#488,#401,#402);
#338=AXIS2_PLACEMENT_3D('',#491,#404,#405);
#339=AXIS2_PLACEMENT_3D('',#495,#408,#409);
#340=AXIS2_PLACEMENT_3D('',#496,#410,#411);
#341=AXIS2_PLACEMENT_3D('',#499,#413,#414);
#342=AXIS2_PLACEMENT_3D('',#503,#417,#418);
#343=AXIS2_PLACEMENT_3D('',#504,#419,#420);
#344=AXIS2_PLACEMENT_3D('',#507,#422,#423);
#345=AXIS2_PLACEMENT_3D('',#509,#425,#426);
#346=AXIS2_PLACEMENT_3D('',#510,#427,#428);
#347=AXIS2_PLACEMENT_3D('',#512,#429,#430);
#348=AXIS2_PLACEMENT_3D('',#513,#431,#432);
#349=DIRECTION('',(0.,0.,1.));
#350=DIRECTION('',(1.,0.,0.));
#351=DIRECTION('',(0.,0.,1.));
#352=DIRECTION('',(-1.,0.,0.));
#353=DIRECTION('',(-2.61981480989983E-16,1.65173576556392E-15,1.));
#354=DIRECTION('',(-0.0829658532163512,-0.996552390594736,1.61268262842044E-15));
#355=DIRECTION('',(0.866025403784438,0.5,0.));
#356=DIRECTION('',(-9.46903668369175E-15,5.46706387729644E-15,1.));
#357=DIRECTION('',(0.821556759848983,-0.570126731829372,1.08965042460849E-14));
#358=DIRECTION('',(1.53318694906413E-16,1.,0.));
#359=DIRECTION('',(2.00569895241015E-15,1.15882457665101E-15,1.));
#360=DIRECTION('',(0.904522613065337,0.426425658765342,-2.31005890017037E-15));
#361=DIRECTION('',(-0.866025403784438,0.500000000000001,0.));
#362=DIRECTION('',(5.26213205739495E-16,-2.93015527197318E-15,1.));
#363=DIRECTION('',(0.0829658532163442,0.996552390594736,2.87667712096648E-15));
#364=DIRECTION('',(-0.866025403784439,-0.5,0.));
#365=DIRECTION('',(2.58733026701038E-16,-1.49575650515964E-16,1.));
#366=DIRECTION('',(-0.821556759848988,0.570126731829364,3.05102118890342E-16));
#367=DIRECTION('',(-4.08849853083768E-16,-1.,5.1106231635471E-17));
#368=DIRECTION('',(3.35323247850005E-16,-4.13643449765282E-16,1.));
#369=DIRECTION('',(-0.904522613065322,-0.426425658765372,1.30758050953011E-16));
#370=DIRECTION('',(-0.866025403784438,0.500000000000001,1.02212463270942E-16));
#371=DIRECTION('',(0.,0.,1.));
#372=DIRECTION('',(0.,-1.,0.));
#373=DIRECTION('',(0.,0.,-1.));
#374=DIRECTION('',(-0.821556759848986,-0.570126731829368,0.));
#375=DIRECTION('',(0.,0.,-1.));
#376=DIRECTION('',(0.,0.,-1.));
#377=DIRECTION('',(3.21314512664801E-17,1.85511020381557E-17,1.));
#378=DIRECTION('',(-0.904522613065322,-0.426425658765372,3.69742901685819E-17));
#379=DIRECTION('',(4.08849853083768E-16,1.,0.));
#380=DIRECTION('',(0.,0.,-1.));
#381=DIRECTION('',(-1.,4.08849853083768E-16,0.));
#382=DIRECTION('',(-4.09394740330526E-16,-1.,0.));
#383=DIRECTION('',(0.,0.,-1.));
#384=DIRECTION('',(-0.90452261306532,0.426425658765376,0.));
#385=DIRECTION('',(0.,0.,-1.));
#386=DIRECTION('',(1.17815321310434E-16,-6.80207074732417E-17,1.));
#387=DIRECTION('',(-0.821556759848988,0.570126731829364,1.35572397284808E-16));
#388=DIRECTION('',(0.866025403784439,0.5,0.));
#389=DIRECTION('',(0.,0.,-1.));
#390=DIRECTION('',(-0.5,0.866025403784439,0.));
#391=DIRECTION('',(-0.866025403784439,-0.5,0.));
#392=DIRECTION('',(0.,0.,-1.));
#393=DIRECTION('',(-0.0829658532163443,0.996552390594736,0.));
#394=DIRECTION('',(0.,0.,-1.));
#395=DIRECTION('',(0.,-1.47172076169352E-15,1.));
#396=DIRECTION('',(0.0829658532163442,0.996552390594736,1.46664684335358E-15));
#397=DIRECTION('',(0.866025403784438,-0.500000000000001,0.));
#398=DIRECTION('',(0.,0.,-1.));
#399=DIRECTION('',(0.500000000000001,0.866025403784438,0.));
#400=DIRECTION('',(-0.866025403784438,0.500000000000001,0.));
#401=DIRECTION('',(0.,0.,-1.));
#402=DIRECTION('',(0.82155675984898,0.570126731829376,0.));
#403=DIRECTION('',(0.,0.,-1.));
#404=DIRECTION('',(1.00678547301608E-15,5.81267863862023E-16,1.));
#405=DIRECTION('',(0.904522613065337,0.426425658765342,-1.15852775861521E-15));
#406=DIRECTION('',(-1.53318694906413E-16,-1.,0.));
#407=DIRECTION('',(0.,0.,-1.));
#408=DIRECTION('',(1.,-1.53318694906413E-16,0.));
#409=DIRECTION('',(1.53523027623947E-16,1.,0.));
#410=DIRECTION('',(0.,0.,-1.));
#411=DIRECTION('',(0.904522613065325,-0.426425658765365,0.));
#412=DIRECTION('',(0.,0.,-1.));
#413=DIRECTION('',(7.60444346639959E-16,-4.3904274823631E-16,1.));
#414=DIRECTION('',(0.821556759848983,-0.570126731829372,-8.75058200656355E-16));
#415=DIRECTION('',(-0.866025403784438,-0.5,0.));
#416=DIRECTION('',(0.,0.,-1.));
#417=DIRECTION('',(0.5,-0.866025403784438,0.));
#418=DIRECTION('',(0.866025403784438,0.5,0.));
#419=DIRECTION('',(0.,0.,-1.));
#420=DIRECTION('',(0.0829658532163282,-0.996552390594738,0.));
#421=DIRECTION('',(0.,0.,1.));
#422=DIRECTION('',(-9.01027065182124E-30,-7.79146285602456E-16,1.));
#423=DIRECTION('',(-0.0829658532163512,-0.996552390594736,-7.76460093540137E-16));
#424=DIRECTION('',(0.866025403784438,-0.500000000000001,0.));
#425=DIRECTION('',(-0.500000000000001,-0.866025403784438,0.));
#426=DIRECTION('',(0.866025403784438,-0.500000000000001,0.));
#427=DIRECTION('',(0.,0.,-1.));
#428=DIRECTION('',(-1.,7.43140017215893E-16,0.));
#429=DIRECTION('',(0.,0.,-1.));
#430=DIRECTION('',(-1.,0.,0.));
#431=DIRECTION('',(7.50100559140714E-19,-3.7386281809845E-17,-1.));
#432=DIRECTION('',(-1.,6.25802119760752E-16,0.));
#433=CARTESIAN_POINT('',(0.,0.,0.));
#434=CARTESIAN_POINT('',(-6.4589474350214,0.183404990821145,2.9));
#435=CARTESIAN_POINT('',(-6.4589474350214,0.183404990821145,2.9));
#436=CARTESIAN_POINT('',(-13.3889474350214,0.183404990821145,2.9));
#437=CARTESIAN_POINT('',(-6.45894743502139,0.183404990822431,2.89999999999998));
#438=CARTESIAN_POINT('',(-7.28445767452407,-9.73229129559648,2.9));
#439=CARTESIAN_POINT('',(-5.63343719551875,-9.73229129559648,2.9));
#440=CARTESIAN_POINT('',(-5.63343719551875,-9.73229129559648,2.9));
#441=CARTESIAN_POINT('',(1.71554232547594,-5.48935599088114,2.9));
#442=CARTESIAN_POINT('',(-6.4589474350219,0.183404990821427,2.89999999999989));
#443=CARTESIAN_POINT('',(2.54105256497859,-4.0595303138942,2.9));
#444=CARTESIAN_POINT('',(2.54105256497859,-4.0595303138942,2.9));
#445=CARTESIAN_POINT('',(2.5410525649786,4.42634029553649,2.9));
#446=CARTESIAN_POINT('',(-6.45894743502047,0.183404990821696,2.90000000000002));
#447=CARTESIAN_POINT('',(1.71554232547595,5.85616597252342,2.9));
#448=CARTESIAN_POINT('',(1.71554232547595,5.85616597252342,2.9));
#449=CARTESIAN_POINT('',(-5.63343719551876,10.0991012772388,2.9));
#450=CARTESIAN_POINT('',(-6.45894743502141,0.183404990820849,2.89999999999997));
#451=CARTESIAN_POINT('',(-7.28445767452406,10.0991012772388,2.9));
#452=CARTESIAN_POINT('',(-7.28445767452406,10.0991012772388,2.9));
#453=CARTESIAN_POINT('',(-14.6334371955188,5.85616597252342,2.9));
#454=CARTESIAN_POINT('',(-6.45894743501997,0.183404990820303,2.9));
#455=CARTESIAN_POINT('',(-15.4589474350214,4.42634029553651,2.9));
#456=CARTESIAN_POINT('',(-15.4589474350214,4.42634029553651,2.9));
#457=CARTESIAN_POINT('',(-15.4589474350214,-4.05953031389421,2.9));
#458=CARTESIAN_POINT('',(-6.45894743502047,0.183404990821699,2.9));
#459=CARTESIAN_POINT('',(-14.6334371955188,-5.48935599088113,2.9));
#460=CARTESIAN_POINT('',(-7.28445767452407,-9.73229129559648,2.9));
#461=CARTESIAN_POINT('',(-15.9089462831617,10.6309049006086,2.9));
#462=CARTESIAN_POINT('',(-6.45894743502048,0.183404990821694,0.));
#463=CARTESIAN_POINT('',(-14.6334371955188,-5.48935599088113,0.));
#464=CARTESIAN_POINT('',(-15.4589474350214,-4.05953031389421,0.));
#465=CARTESIAN_POINT('',(-14.6334371955188,-5.48935599088113,2.9));
#466=CARTESIAN_POINT('',(-15.4589474350214,-4.05953031389421,2.9));
#467=CARTESIAN_POINT('',(-6.45894743502047,0.183404990821699,-2.16840434497101E-16));
#468=CARTESIAN_POINT('',(-15.4589474350214,-4.05953031389421,0.));
#469=CARTESIAN_POINT('',(-15.4589474350214,4.42634029553651,0.));
#470=CARTESIAN_POINT('',(-15.4589474350214,4.42634029553651,2.9));
#471=CARTESIAN_POINT('',(-15.4589474350214,4.42634029553651,0.));
#472=CARTESIAN_POINT('',(-6.45894743502,0.183404990820322,0.));
#473=CARTESIAN_POINT('',(-14.6334371955188,5.85616597252342,0.));
#474=CARTESIAN_POINT('',(-14.6334371955188,5.85616597252342,2.9));
#475=CARTESIAN_POINT('',(-6.45894743501997,0.183404990820303,-1.30104260698261E-15));
#476=CARTESIAN_POINT('',(-14.6334371955188,5.85616597252342,0.));
#477=CARTESIAN_POINT('',(-7.28445767452406,10.0991012772388,0.));
#478=CARTESIAN_POINT('',(-7.28445767452406,10.0991012772388,2.9));
#479=CARTESIAN_POINT('',(-7.28445767452406,10.0991012772388,0.));
#480=CARTESIAN_POINT('',(-6.45894743502141,0.183404990820897,0.));
#481=CARTESIAN_POINT('',(-5.63343719551876,10.0991012772388,0.));
#482=CARTESIAN_POINT('',(-5.63343719551876,10.0991012772388,2.9));
#483=CARTESIAN_POINT('',(-6.45894743502141,0.183404990820849,-1.45283091113058E-14));
#484=CARTESIAN_POINT('',(-5.63343719551876,10.0991012772388,0.));
#485=CARTESIAN_POINT('',(1.71554232547595,5.85616597252342,0.));
#486=CARTESIAN_POINT('',(1.71554232547595,5.85616597252342,2.9));
#487=CARTESIAN_POINT('',(1.71554232547595,5.85616597252342,0.));
#488=CARTESIAN_POINT('',(-6.45894743502048,0.183404990821694,0.));
#489=CARTESIAN_POINT('',(2.5410525649786,4.42634029553649,0.));
#490=CARTESIAN_POINT('',(2.5410525649786,4.42634029553649,2.9));
#491=CARTESIAN_POINT('',(-6.45894743502047,0.183404990821697,1.19262238973405E-14));
#492=CARTESIAN_POINT('',(2.54105256497859,4.42634029553649,0.));
#493=CARTESIAN_POINT('',(2.54105256497859,-4.0595303138942,0.));
#494=CARTESIAN_POINT('',(2.54105256497859,-4.0595303138942,2.9));
#495=CARTESIAN_POINT('',(2.54105256497859,-4.0595303138942,0.));
#496=CARTESIAN_POINT('',(-6.45894743502187,0.183404990821412,0.));
#497=CARTESIAN_POINT('',(1.71554232547594,-5.48935599088114,0.));
#498=CARTESIAN_POINT('',(1.71554232547594,-5.48935599088114,2.9));
#499=CARTESIAN_POINT('',(-6.4589474350219,0.183404990821428,8.89045781438114E-15));
#500=CARTESIAN_POINT('',(1.71554232547594,-5.48935599088114,0.));
#501=CARTESIAN_POINT('',(-5.63343719551875,-9.73229129559648,0.));
#502=CARTESIAN_POINT('',(-5.63343719551875,-9.73229129559648,2.9));
#503=CARTESIAN_POINT('',(-5.63343719551875,-9.73229129559648,0.));
#504=CARTESIAN_POINT('',(-6.45894743502139,0.183404990822408,0.));
#505=CARTESIAN_POINT('',(-7.28445767452407,-9.73229129559648,0.));
#506=CARTESIAN_POINT('',(-7.28445767452407,-9.73229129559648,0.));
#507=CARTESIAN_POINT('',(-6.45894743502139,0.18340499082243,7.80625564189563E-15));
#508=CARTESIAN_POINT('',(-14.6334371955188,-5.48935599088113,0.));
#509=CARTESIAN_POINT('',(-14.6334371955188,-5.48935599088113,0.));
#510=CARTESIAN_POINT('',(-6.4589474350214,0.18340499082114,0.));
#511=CARTESIAN_POINT('',(-13.3889474350214,0.183404990821145,0.));
#512=CARTESIAN_POINT('',(2.99105048179625,-10.2640956465621,0.));
#513=CARTESIAN_POINT('',(-6.4589474350214,0.183404990821141,2.9));
#514=MECHANICAL_DESIGN_GEOMETRIC_PRESENTATION_REPRESENTATION('',(#311,#312),
#515);
#515=(
GEOMETRIC_REPRESENTATION_CONTEXT(3)
GLOBAL_UNCERTAINTY_ASSIGNED_CONTEXT((#516))
GLOBAL_UNIT_ASSIGNED_CONTEXT((#522,#518,#517))
REPRESENTATION_CONTEXT('100740366ugm000_a','TOP_LEVEL_ASSEMBLY_PART')
);
#516=UNCERTAINTY_MEASURE_WITH_UNIT(LENGTH_MEASURE(2.E-5),#522,
'DISTANCE_ACCURACY_VALUE','Maximum Tolerance applied to model');
#517=(
NAMED_UNIT(*)
SI_UNIT($,.STERADIAN.)
SOLID_ANGLE_UNIT()
);
#518=(
CONVERSION_BASED_UNIT('DEGREE',#520)
NAMED_UNIT(#519)
PLANE_ANGLE_UNIT()
);
#519=DIMENSIONAL_EXPONENTS(0.,0.,0.,0.,0.,0.,0.);
#520=PLANE_ANGLE_MEASURE_WITH_UNIT(PLANE_ANGLE_MEASURE(0.0174532925),#521);
#521=(
NAMED_UNIT(*)
PLANE_ANGLE_UNIT()
SI_UNIT($,.RADIAN.)
);
#522=(
LENGTH_UNIT()
NAMED_UNIT(*)
SI_UNIT(.MILLI.,.METRE.)
);
ENDSEC;
END-ISO-10303-21;
